ISO-10303-21;
HEADER;
FILE_DESCRIPTION (( 'STEP AP203' ),
    '1' );
FILE_NAME ('MHWP-12.7-1064.STEP',
    '2020-12-22T09:24:43',
    ( '' ),
    ( '' ),
    'SwSTEP 2.0',
    'SolidWorks 2020',
    '' );
FILE_SCHEMA (( 'CONFIG_CONTROL_DESIGN' ));
ENDSEC;

DATA;
#1 = EDGE_CURVE ( 'NONE', #17, #143, #74, .T. ) ;
#2 = AXIS2_PLACEMENT_3D ( 'NONE', #117, #72, #98 ) ;
#3 = PERSON_AND_ORGANIZATION ( #136, #173 ) ;
#4 = CARTESIAN_POINT ( 'NONE',  ( 1.999999999999999112, 0.000000000000000000, 6.349999999999999645 ) ) ;
#5 = DIRECTION ( 'NONE',  ( -1.000000000000000000, -0.000000000000000000, -0.000000000000000000 ) ) ;
#6 = AXIS2_PLACEMENT_3D ( 'NONE', #171, #86, #116 ) ;
#7 = CARTESIAN_POINT ( 'NONE',  ( -2.051283388571816641E-16, 6.349999999999999645, 0.000000000000000000 ) ) ;
#8 = CC_DESIGN_APPROVAL ( #158, ( #41 ) ) ;
#9 =( NAMED_UNIT ( * ) SI_UNIT ( $, .STERADIAN. ) SOLID_ANGLE_UNIT ( ) );
#10 = PERSON_AND_ORGANIZATION ( #136, #173 ) ;
#11 = APPROVAL_PERSON_ORGANIZATION ( #175, #156, #149 ) ;
#12 = APPROVAL_STATUS ( 'not_yet_approved' ) ;
#13 = DIRECTION ( 'NONE',  ( 1.000000000000000000, 0.000000000000000000, 0.000000000000000000 ) ) ;
#14 = APPROVAL_ROLE ( '' ) ;
#15 = CIRCLE ( 'NONE', #29, 6.349999999999999645 ) ;
#16 = PERSON_AND_ORGANIZATION_ROLE ( 'classification_officer' ) ;
#17 = VERTEX_POINT ( 'NONE', #4 ) ;
#18 = ORIENTED_EDGE ( 'NONE', *, *, #1, .F. ) ;
#19 = CC_DESIGN_APPROVAL ( #110, ( #27 ) ) ;
#20 = EDGE_LOOP ( 'NONE', ( #44, #155, #130, #18 ) ) ;
#21 = CIRCLE ( 'NONE', #88, 6.349999999999999645 ) ;
#22 = ORIENTED_EDGE ( 'NONE', *, *, #84, .F. ) ;
#23 = CALENDAR_DATE ( 2020, 22, 12 ) ;
#24 = DIRECTION ( 'NONE',  ( -0.000000000000000000, 0.000000000000000000, 1.000000000000000000 ) ) ;
#25 = CC_DESIGN_PERSON_AND_ORGANIZATION_ASSIGNMENT ( #3, #112, ( #27 ) ) ;
#26 = APPROVAL_STATUS ( 'not_yet_approved' ) ;
#27 = PRODUCT_DEFINITION_FORMATION_WITH_SPECIFIED_SOURCE ( 'ANY', '', #66, .NOT_KNOWN. ) ;
#28 = LOCAL_TIME ( 17, 24, 43.00000000000000000, #163 ) ;
#29 = AXIS2_PLACEMENT_3D ( 'NONE', #36, #127, #129 ) ;
#30 = VECTOR ( 'NONE', #101, 1000.000000000000000 ) ;
#31 = ORIENTED_EDGE ( 'NONE', *, *, #153, .F. ) ;
#32 = EDGE_CURVE ( 'NONE', #166, #17, #77, .T. ) ;
#33 = ORIENTED_EDGE ( 'NONE', *, *, #142, .F. ) ;
#34 = CARTESIAN_POINT ( 'NONE',  ( 0.000000000000000000, 7.776507174585692163E-16, -6.349999999999999645 ) ) ;
#35 = EDGE_LOOP ( 'NONE', ( #33, #46, #75, #31 ) ) ;
#36 = CARTESIAN_POINT ( 'NONE',  ( 1.999999999999999112, 0.000000000000000000, 0.000000000000000000 ) ) ;
#37 = DIRECTION ( 'NONE',  ( 0.000000000000000000, 0.000000000000000000, 1.000000000000000000 ) ) ;
#38 = COORDINATED_UNIVERSAL_TIME_OFFSET ( 8, 0, .AHEAD. ) ;
#39 = DIRECTION ( 'NONE',  ( 0.000000000000000000, 0.000000000000000000, 1.000000000000000000 ) ) ;
#40 = CARTESIAN_POINT ( 'NONE',  ( -4.102566777143633281E-16, 7.776507174585692163E-16, -6.349999999999999645 ) ) ;
#41 = SECURITY_CLASSIFICATION ( '', '', #81 ) ;
#42 = DATE_AND_TIME ( #51, #170 ) ;
#43 = COORDINATED_UNIVERSAL_TIME_OFFSET ( 8, 0, .AHEAD. ) ;
#44 = ORIENTED_EDGE ( 'NONE', *, *, #84, .T. ) ;
#45 = DIRECTION ( 'NONE',  ( 0.000000000000000000, 0.000000000000000000, 1.000000000000000000 ) ) ;
#46 = ORIENTED_EDGE ( 'NONE', *, *, #32, .T. ) ;
#47 = ADVANCED_FACE ( 'NONE', ( #59 ), #146, .F. ) ;
#48 = ORIENTED_EDGE ( 'NONE', *, *, #32, .F. ) ;
#49 = DESIGN_CONTEXT ( 'detailed design', #109, 'design' ) ;
#50 = CIRCLE ( 'NONE', #174, 6.349999999999999645 ) ;
#51 = CALENDAR_DATE ( 2020, 22, 12 ) ;
#52 = COORDINATED_UNIVERSAL_TIME_OFFSET ( 8, 0, .AHEAD. ) ;
#53 = ADVANCED_FACE ( 'NONE', ( #56 ), #119, .T. ) ;
#54 = PERSON_AND_ORGANIZATION ( #136, #173 ) ;
#55 = CC_DESIGN_PERSON_AND_ORGANIZATION_ASSIGNMENT ( #76, #150, ( #160 ) ) ;
#56 = FACE_OUTER_BOUND ( 'NONE', #20, .T. ) ;
#57 = FACE_OUTER_BOUND ( 'NONE', #35, .T. ) ;
#58 = CARTESIAN_POINT ( 'NONE',  ( -4.102566777143633281E-16, 0.000000000000000000, 0.000000000000000000 ) ) ;
#59 = FACE_OUTER_BOUND ( 'NONE', #141, .T. ) ;
#60 = DIRECTION ( 'NONE',  ( 1.000000000000000000, 0.000000000000000000, 0.000000000000000000 ) ) ;
#61 = MECHANICAL_CONTEXT ( 'NONE', #93, 'mechanical' ) ;
#62 = DIRECTION ( 'NONE',  ( -1.000000000000000000, -0.000000000000000000, -0.000000000000000000 ) ) ;
#63 = CC_DESIGN_PERSON_AND_ORGANIZATION_ASSIGNMENT ( #95, #16, ( #41 ) ) ;
#64 = DIRECTION ( 'NONE',  ( -1.000000000000000000, 0.000000000000000000, -0.000000000000000000 ) ) ;
#65 = APPROVAL_ROLE ( '' ) ;
#66 = PRODUCT ( 'MHWP-12.7-1064', 'MHWP-12.7-1064', '', ( #61 ) ) ;
#67 = APPROVAL_DATE_TIME ( #42, #110 ) ;
#68 = ADVANCED_BREP_SHAPE_REPRESENTATION ( 'MHWP-12.7-1064', ( #121, #114 ), #167 ) ;
#69 = LOCAL_TIME ( 17, 24, 43.00000000000000000, #38 ) ;
#70 = CARTESIAN_POINT ( 'NONE',  ( 0.000000000000000000, 0.000000000000000000, 6.349999999999999645 ) ) ;
#71 = UNCERTAINTY_MEASURE_WITH_UNIT (LENGTH_MEASURE( 1.000000000000000082E-05 ), #147, 'distance_accuracy_value', 'NONE');
#72 = DIRECTION ( 'NONE',  ( -1.000000000000000000, -0.000000000000000000, -0.000000000000000000 ) ) ;
#73 = AXIS2_PLACEMENT_3D ( 'NONE', #128, #5, #45 ) ;
#74 = LINE ( 'NONE', #70, #30 ) ;
#75 = ORIENTED_EDGE ( 'NONE', *, *, #1, .T. ) ;
#76 = PERSON_AND_ORGANIZATION ( #136, #173 ) ;
#77 = CIRCLE ( 'NONE', #2, 6.349999999999999645 ) ;
#78 = CC_DESIGN_DATE_AND_TIME_ASSIGNMENT ( #111, #137, ( #41 ) ) ;
#79 = CARTESIAN_POINT ( 'NONE',  ( 1.999999999999999112, 7.776507174585692163E-16, -6.349999999999999645 ) ) ;
#80 = DATE_AND_TIME ( #115, #83 ) ;
#81 = SECURITY_CLASSIFICATION_LEVEL ( 'unclassified' ) ;
#82 = APPROVAL_STATUS ( 'not_yet_approved' ) ;
#83 = LOCAL_TIME ( 17, 24, 43.00000000000000000, #43 ) ;
#84 = EDGE_CURVE ( 'NONE', #17, #166, #15, .T. ) ;
#85 = EDGE_LOOP ( 'NONE', ( #22, #48 ) ) ;
#86 = DIRECTION ( 'NONE',  ( -1.000000000000000000, -0.000000000000000000, -0.000000000000000000 ) ) ;
#87 = ADVANCED_FACE ( 'NONE', ( #57 ), #168, .T. ) ;
#88 = AXIS2_PLACEMENT_3D ( 'NONE', #172, #135, #37 ) ;
#89 = ORIENTED_EDGE ( 'NONE', *, *, #131, .T. ) ;
#90 = CARTESIAN_POINT ( 'NONE',  ( -4.102566777143633281E-16, 0.000000000000000000, 6.349999999999999645 ) ) ;
#91 = CALENDAR_DATE ( 2020, 22, 12 ) ;
#92 = DATE_TIME_ROLE ( 'creation_date' ) ;
#93 = APPLICATION_CONTEXT ( 'configuration controlled 3d designs of mechanical parts and assemblies' ) ;
#94 =( NAMED_UNIT ( * ) PLANE_ANGLE_UNIT ( ) SI_UNIT ( $, .RADIAN. ) );
#95 = PERSON_AND_ORGANIZATION ( #136, #173 ) ;
#96 = VECTOR ( 'NONE', #62, 1000.000000000000000 ) ;
#97 = CC_DESIGN_PERSON_AND_ORGANIZATION_ASSIGNMENT ( #148, #104, ( #66 ) ) ;
#98 = DIRECTION ( 'NONE',  ( 0.000000000000000000, 0.000000000000000000, 1.000000000000000000 ) ) ;
#99 = ORIENTED_EDGE ( 'NONE', *, *, #153, .T. ) ;
#100 = DIRECTION ( 'NONE',  ( 0.000000000000000000, 0.000000000000000000, 1.000000000000000000 ) ) ;
#101 = DIRECTION ( 'NONE',  ( -1.000000000000000000, -0.000000000000000000, -0.000000000000000000 ) ) ;
#102 = CC_DESIGN_DATE_AND_TIME_ASSIGNMENT ( #133, #92, ( #160 ) ) ;
#103 = LOCAL_TIME ( 17, 24, 43.00000000000000000, #52 ) ;
#104 = PERSON_AND_ORGANIZATION_ROLE ( 'design_owner' ) ;
#105 = CARTESIAN_POINT ( 'NONE',  ( 1.999999999999999556, 6.349999999999999645, 0.000000000000000000 ) ) ;
#106 = PRODUCT_RELATED_PRODUCT_CATEGORY ( 'detail', '', ( #66 ) ) ;
#107 = APPROVAL_DATE_TIME ( #134, #156 ) ;
#108 = CC_DESIGN_SECURITY_CLASSIFICATION ( #41, ( #27 ) ) ;
#109 = APPLICATION_CONTEXT ( 'configuration controlled 3d designs of mechanical parts and assemblies' ) ;
#110 = APPROVAL ( #26, 'UNSPECIFIED' ) ;
#111 = DATE_AND_TIME ( #152, #28 ) ;
#112 = PERSON_AND_ORGANIZATION_ROLE ( 'creator' ) ;
#113 = PERSON_AND_ORGANIZATION_ROLE ( 'design_supplier' ) ;
#114 = AXIS2_PLACEMENT_3D ( 'NONE', #157, #39, #13 ) ;
#115 = CALENDAR_DATE ( 2020, 22, 12 ) ;
#116 = DIRECTION ( 'NONE',  ( 0.000000000000000000, 0.000000000000000000, 1.000000000000000000 ) ) ;
#117 = CARTESIAN_POINT ( 'NONE',  ( 1.999999999999999112, 0.000000000000000000, 0.000000000000000000 ) ) ;
#118 = DIRECTION ( 'NONE',  ( -1.000000000000000000, -0.000000000000000000, -0.000000000000000000 ) ) ;
#119 = CYLINDRICAL_SURFACE ( 'NONE', #6, 6.349999999999999645 ) ;
#120 = FACE_OUTER_BOUND ( 'NONE', #85, .T. ) ;
#121 = MANIFOLD_SOLID_BREP ( 'Ðý×', #162 ) ;
#122 = COORDINATED_UNIVERSAL_TIME_OFFSET ( 8, 0, .AHEAD. ) ;
#123 = APPLICATION_PROTOCOL_DEFINITION ( 'international standard', 'config_control_design', 1994, #109 ) ;
#124 = SHAPE_DEFINITION_REPRESENTATION ( #164, #68 ) ;
#125 = AXIS2_PLACEMENT_3D ( 'NONE', #7, #60, #145 ) ;
#126 = PERSON_AND_ORGANIZATION ( #136, #173 ) ;
#127 = DIRECTION ( 'NONE',  ( -1.000000000000000000, -0.000000000000000000, -0.000000000000000000 ) ) ;
#128 = CARTESIAN_POINT ( 'NONE',  ( 0.000000000000000000, 0.000000000000000000, 0.000000000000000000 ) ) ;
#129 = DIRECTION ( 'NONE',  ( 0.000000000000000000, 0.000000000000000000, 1.000000000000000000 ) ) ;
#130 = ORIENTED_EDGE ( 'NONE', *, *, #131, .F. ) ;
#131 = EDGE_CURVE ( 'NONE', #143, #169, #50, .T. ) ;
#132 = PLANE ( 'NONE',  #165 ) ;
#133 = DATE_AND_TIME ( #91, #69 ) ;
#134 = DATE_AND_TIME ( #23, #103 ) ;
#135 = DIRECTION ( 'NONE',  ( -1.000000000000000000, -0.000000000000000000, -0.000000000000000000 ) ) ;
#136 = PERSON ( 'UNSPECIFIED', 'UNSPECIFIED', 'UNSPECIFIED', ('UNSPECIFIED'), ('UNSPECIFIED'), ('UNSPECIFIED') ) ;
#137 = DATE_TIME_ROLE ( 'classification_date' ) ;
#138 = APPROVAL_PERSON_ORGANIZATION ( #10, #110, #65 ) ;
#139 = APPROVAL_DATE_TIME ( #80, #158 ) ;
#140 = APPROVAL_PERSON_ORGANIZATION ( #126, #158, #14 ) ;
#141 = EDGE_LOOP ( 'NONE', ( #89, #99 ) ) ;
#142 = EDGE_CURVE ( 'NONE', #166, #169, #154, .T. ) ;
#143 = VERTEX_POINT ( 'NONE', #90 ) ;
#144 = CC_DESIGN_PERSON_AND_ORGANIZATION_ASSIGNMENT ( #54, #113, ( #27 ) ) ;
#145 = DIRECTION ( 'NONE',  ( 0.000000000000000000, 0.000000000000000000, -1.000000000000000000 ) ) ;
#146 = PLANE ( 'NONE',  #125 ) ;
#147 =( LENGTH_UNIT ( ) NAMED_UNIT ( * ) SI_UNIT ( .MILLI., .METRE. ) );
#148 = PERSON_AND_ORGANIZATION ( #136, #173 ) ;
#149 = APPROVAL_ROLE ( '' ) ;
#150 = PERSON_AND_ORGANIZATION_ROLE ( 'creator' ) ;
#151 = ADVANCED_FACE ( 'NONE', ( #120 ), #132, .F. ) ;
#152 = CALENDAR_DATE ( 2020, 22, 12 ) ;
#153 = EDGE_CURVE ( 'NONE', #169, #143, #21, .T. ) ;
#154 = LINE ( 'NONE', #34, #96 ) ;
#155 = ORIENTED_EDGE ( 'NONE', *, *, #142, .T. ) ;
#156 = APPROVAL ( #12, 'UNSPECIFIED' ) ;
#157 = CARTESIAN_POINT ( 'NONE',  ( 0.000000000000000000, 0.000000000000000000, 0.000000000000000000 ) ) ;
#158 = APPROVAL ( #82, 'UNSPECIFIED' ) ;
#159 = APPLICATION_PROTOCOL_DEFINITION ( 'international standard', 'config_control_design', 1994, #93 ) ;
#160 = PRODUCT_DEFINITION ( 'UNKNOWN', '', #27, #49 ) ;
#161 = CC_DESIGN_APPROVAL ( #156, ( #160 ) ) ;
#162 = CLOSED_SHELL ( 'NONE', ( #53, #87, #151, #47 ) ) ;
#163 = COORDINATED_UNIVERSAL_TIME_OFFSET ( 8, 0, .AHEAD. ) ;
#164 = PRODUCT_DEFINITION_SHAPE ( 'NONE', 'NONE',  #160 ) ;
#165 = AXIS2_PLACEMENT_3D ( 'NONE', #105, #64, #24 ) ;
#166 = VERTEX_POINT ( 'NONE', #79 ) ;
#167 =( GEOMETRIC_REPRESENTATION_CONTEXT ( 3 ) GLOBAL_UNCERTAINTY_ASSIGNED_CONTEXT ( ( #71 ) ) GLOBAL_UNIT_ASSIGNED_CONTEXT ( ( #147, #94, #9 ) ) REPRESENTATION_CONTEXT ( 'NONE', 'WORKASPACE' ) );
#168 = CYLINDRICAL_SURFACE ( 'NONE', #73, 6.349999999999999645 ) ;
#169 = VERTEX_POINT ( 'NONE', #40 ) ;
#170 = LOCAL_TIME ( 17, 24, 43.00000000000000000, #122 ) ;
#171 = CARTESIAN_POINT ( 'NONE',  ( 0.000000000000000000, 0.000000000000000000, 0.000000000000000000 ) ) ;
#172 = CARTESIAN_POINT ( 'NONE',  ( -4.102566777143633281E-16, 0.000000000000000000, 0.000000000000000000 ) ) ;
#173 = ORGANIZATION ( 'UNSPECIFIED', 'UNSPECIFIED', '' ) ;
#174 = AXIS2_PLACEMENT_3D ( 'NONE', #58, #118, #100 ) ;
#175 = PERSON_AND_ORGANIZATION ( #136, #173 ) ;
ENDSEC;
END-ISO-10303-21;
